Shapes guitar tab

What are guitar strings made of? For technical questions about music and gear.

Moderators: Moderators Emeritus, Moderators

Reggietothemax
Posts: 2
Joined: Fri Mar 12, 2004 12:00 pm
Location: Auburn Wa for home, L.A. for school
Contact:

Shapes guitar tab

Postby Reggietothemax » Fri Mar 12, 2004 12:10 pm

Sorry if I post this as a new topic if it need not be, I could not decided whether to post as a new topic or put under other guitar tab topics. Anyways, I just wanted to know if anyone had or would figure out the tab for the song Shapes? Thanks in advance.

User avatar
Unremarkable
Posts: 1166
Joined: Tue Apr 22, 2003 11:09 am
Current Heading: East
Location: Kennewick?

Postby Unremarkable » Fri Mar 12, 2004 1:27 pm

I think there is something like that here: http://www.thelongwinters.com/board/viewtopic.php?t=101

User avatar
Karousme
Posts: 530
Joined: Fri Jun 06, 2003 12:20 am
Location: Your Smelly Face
Contact:

Postby Karousme » Fri Mar 12, 2004 2:43 pm

If anyone wants the tab, email me. I also tabbed the SOLO.

So like I said, email me if you want it

User avatar
Karousme
Posts: 530
Joined: Fri Jun 06, 2003 12:20 am
Location: Your Smelly Face
Contact:

Postby Karousme » Sun Mar 28, 2004 3:54 pm

I've gotten a few emails, so I figured I will post it.

I'm quite confident on the accuracy of this tab. From listening hard and seeing John play it live a number of times, I think it's very close.

e -------------------------------------------------------------------------
B ----------3-------3------------------------------------------------------
G ---h4p0---h4p0---4/6----------6------6----0---------------2-------2----0--
D ---------------------------h7p0--h7p0---7------------h4p0---h4p0---h4--
A -------------------------------------------------------------------------
E -------------------------------------------------------------------------


e ---------------------------
B ----------------------------
G ---------------------------
D ---------2-------2------0----
A --h4p0---h4p0---h4p------
E -----------------------------

The solo goes like this, or at least sounds like this. I'm not sure if John plays it like this, but this is as close as I've come.

e ---------------------5h0--7-9-7--5-9-7-9-7-----------------
B ---------2----5-2------------------------------7------5----------------
G -------2--2-------------------------- ------------6/4---------
D ---2/4----------------------------------------------------------
A ----------------------------------------------------------
E ------------------------------------------------------------

e ---------------------------------------------------------------
B ---------------------------------------------------------------
G ---------------------------------6------------------------------
D ----------2-------4------4-----------------------------------------------
A -----4h0----5h0---6h0---7h0-------------------------------------------------
E ----------------------------------------------------------------


-Jace


Return to “Band Nerd!”

Who is online

Users browsing this forum: No registered users and 1 guest